ISO-10303-21;
HEADER;
FILE_DESCRIPTION (( 'CADO STEP EXCHANGE' ),'1' );
FILE_NAME ('RowShape_Unit__0__RowIndex__0___Divider__0__solid.step',
    '2020-05-12T17:01:54',
    ( 'alsalihi' ),
    ( 'none' ),
    'CADO V5',
    'CADO STEP AP203',
    '' );
FILE_SCHEMA (( 'CONFIG_CONTROL_DESIGN' ));
ENDSEC;
DATA;
#1=APPLICATION_CONTEXT('configuration controlled 3D design of mechanical parts and assemblies') ;
#2=MECHANICAL_CONTEXT(' ',#1,'mechanical') ;
#3=DESIGN_CONTEXT(' ',#1,'design') ;
#4=APPLICATION_PROTOCOL_DEFINITION('international standard', 'config_control_design',1994,#1) ;
#5=PRODUCT('Part1','Part1','',(#2)) ;
#6=PRODUCT_DEFINITION_FORMATION_WITH_SPECIFIED_SOURCE('ANY',' ',#5,.NOT_KNOWN.) ;
#7=PRODUCT_CATEGORY('part',$) ;
#8=PRODUCT_RELATED_PRODUCT_CATEGORY('detail',$,(#5)) ;
#9=PRODUCT_CATEGORY_RELATIONSHIP(' ',' ',#7,#8) ;
#10=COORDINATED_UNIVERSAL_TIME_OFFSET(0,0,.AHEAD.) ;
#11=CALENDAR_DATE(2014,15,5) ;
#12=LOCAL_TIME(15,19,6.,#10) ;
#13=DATE_AND_TIME(#11,#12) ;
#14=PRODUCT_DEFINITION(' ',' ',#6,#3) ;
#15=SECURITY_CLASSIFICATION_LEVEL('unclassified') ;
#16=SECURITY_CLASSIFICATION(' ',' ',#15) ;
#17=DATE_TIME_ROLE('classification_date') ;
#18=CC_DESIGN_DATE_AND_TIME_ASSIGNMENT(#13,#17,(#16)) ;
#19=APPROVAL_ROLE('APPROVER') ;
#20=APPROVAL_STATUS('not_yet_approved') ;
#21=APPROVAL(#20,' ') ;
#22=PERSON(' ',' ',' ',$,$,$) ;
#23=ORGANIZATION(' ',' ',' ') ;
#24=PERSONAL_ADDRESS(' ',' ',' ',' ',' ',' ',' ',' ',' ',' ',' ',' ',(#22),' ') ;
#25=PERSON_AND_ORGANIZATION(#22,#23) ;
#26=PERSON_AND_ORGANIZATION_ROLE('classification_officer') ;
#27=CC_DESIGN_PERSON_AND_ORGANIZATION_ASSIGNMENT(#25,#26,(#16)) ;
#28=DATE_TIME_ROLE('creation_date') ;
#29=CC_DESIGN_DATE_AND_TIME_ASSIGNMENT(#13,#28,(#14)) ;
#30=CC_DESIGN_APPROVAL(#21,(#16,#6,#14)) ;
#31=APPROVAL_PERSON_ORGANIZATION(#25,#21,#19) ;
#32=APPROVAL_DATE_TIME(#13,#21) ;
#33=CC_DESIGN_PERSON_AND_ORGANIZATION_ASSIGNMENT(#25,#34,(#6)) ;
#34=PERSON_AND_ORGANIZATION_ROLE('design_supplier') ;
#35=CC_DESIGN_PERSON_AND_ORGANIZATION_ASSIGNMENT(#25,#36,(#6,#14)) ;
#36=PERSON_AND_ORGANIZATION_ROLE('creator') ;
#37=CC_DESIGN_PERSON_AND_ORGANIZATION_ASSIGNMENT(#25,#38,(#5)) ;
#38=PERSON_AND_ORGANIZATION_ROLE('design_owner') ;
#39=CC_DESIGN_SECURITY_CLASSIFICATION(#16,(#6)) ;
#40=PRODUCT_DEFINITION_SHAPE(' ',' ',#14) ;
#41=(LENGTH_UNIT()NAMED_UNIT(*)SI_UNIT(.MILLI.,.METRE.)) ;
#42=(NAMED_UNIT(*)PLANE_ANGLE_UNIT()SI_UNIT($,.RADIAN.)) ;
#43=PLANE_ANGLE_MEASURE_WITH_UNIT(PLANE_ANGLE_MEASURE(0.0174532925199),#42) ;
#44=(NAMED_UNIT(*)SI_UNIT($,.STERADIAN.)SOLID_ANGLE_UNIT()) ;
#45=UNCERTAINTY_MEASURE_WITH_UNIT(LENGTH_MEASURE(0.005), #41,'distance_accuracy_value','CONFUSED CURVE UNCERTAINTY') ;
#46=(GEOMETRIC_REPRESENTATION_CONTEXT(3)GLOBAL_UNCERTAINTY_ASSIGNED_CONTEXT((#45))GLOBAL_UNIT_ASSIGNED_CONTEXT((#41,#42,#44))REPRESENTATION_CONTEXT(' ',' ')) ;
#47=CARTESIAN_POINT(' ',(0.,0.,0.)) ;
#48=AXIS2_PLACEMENT_3D(' ',#47,$,$) ;
#49=SHAPE_REPRESENTATION(' ',(#48),#46) ;
#50=SHAPE_DEFINITION_REPRESENTATION(#40,#49) ;
#51=CARTESIAN_POINT('NONE',(0.000000000000,-0.500000000000,51.000000000000));
#52=CARTESIAN_POINT('NONE',(0.000000000000,0.500000000000,51.000000000000));
#53=B_SPLINE_CURVE_WITH_KNOTS('NONE',1,
 (#51,#52),
 .UNSPECIFIED.,.F.,.F.,
 (2,2),
 (0.000000000000,1.000000000000),.UNSPECIFIED.);
#54=CARTESIAN_POINT('NONE',(0.000000000000,-0.500000000000,51.000000000000));
#55=VERTEX_POINT('NONE',#54);
#56=CARTESIAN_POINT('NONE',(0.000000000000,0.500000000000,51.000000000000));
#57=VERTEX_POINT('NONE',#56);
#58=EDGE_CURVE('Edge.Divider.Front',#55,#57,#53,.T.);
#59=ORIENTED_EDGE('NONE',*,*,#58,.F.);
#60=CARTESIAN_POINT('NONE',(0.000000000000,-0.500000000000,51.000000000000));
#61=CARTESIAN_POINT('NONE',(0.000000000000,-0.500000000000,199.000000000000));
#62=B_SPLINE_CURVE_WITH_KNOTS('NONE',1,
 (#60,#61),
 .UNSPECIFIED.,.F.,.F.,
 (2,2),
 (0.000000000000,1.000000000000),.UNSPECIFIED.);
#63=CARTESIAN_POINT('NONE',(0.000000000000,-0.500000000000,199.000000000000));
#64=VERTEX_POINT('NONE',#63);
#65=EDGE_CURVE('Edge.Divider.SpanwiseC4 ',#55,#64,#62,.T.);
#66=ORIENTED_EDGE('NONE',*,*,#65,.T.);
#67=CARTESIAN_POINT('NONE',(0.000000000000,-0.500000000000,199.000000000000));
#68=CARTESIAN_POINT('NONE',(0.000000000000,0.500000000000,199.000000000000));
#69=B_SPLINE_CURVE_WITH_KNOTS('NONE',1,
 (#67,#68),
 .UNSPECIFIED.,.F.,.F.,
 (2,2),
 (0.000000000000,1.000000000000),.UNSPECIFIED.);
#70=CARTESIAN_POINT('NONE',(0.000000000000,0.500000000000,199.000000000000));
#71=VERTEX_POINT('NONE',#70);
#72=EDGE_CURVE('Edge.Divider.FrontTop ',#64,#71,#69,.T.);
#73=ORIENTED_EDGE('NONE',*,*,#72,.T.);
#74=CARTESIAN_POINT('NONE',(0.000000000000,0.500000000000,51.000000000000));
#75=CARTESIAN_POINT('NONE',(0.000000000000,0.500000000000,199.000000000000));
#76=B_SPLINE_CURVE_WITH_KNOTS('NONE',1,
 (#74,#75),
 .UNSPECIFIED.,.F.,.F.,
 (2,2),
 (0.000000000000,1.000000000000),.UNSPECIFIED.);
#77=EDGE_CURVE('Edge.Divider.SpanwiseC3 ',#57,#71,#76,.T.);
#78=ORIENTED_EDGE('NONE',*,*,#77,.F.);
#79=EDGE_LOOP('EdgeLoop.Divider.Front',(#59,#66,#73,#78));
#80=FACE_OUTER_BOUND('FaceBound.Divider.Front',#79,.T.);
#81=CARTESIAN_POINT('NONE',(0.000000000000,-0.500000000000,51.000000000000));
#82=CARTESIAN_POINT('NONE',(0.000000000000,0.500000000000,51.000000000000));
#83=CARTESIAN_POINT('NONE',(0.000000000000,-0.500000000000,199.000000000000));
#84=CARTESIAN_POINT('NONE',(0.000000000000,0.500000000000,199.000000000000));
#85=B_SPLINE_SURFACE_WITH_KNOTS('NONE',1,1,(
 (#81,#82),(#83,#84)),.UNSPECIFIED.,.F.,.F.,.F.,
 (2,2),
 (2,2),
 (0.000000000000,1.000000000000),
 (0.000000000000,1.000000000000),
 .UNSPECIFIED.);
#86=ADVANCED_FACE('FaceBound.Divider.Front__0_0_0',(#80),#85,.T.);
#87=CARTESIAN_POINT('NONE',(256.000000000000,0.500000000000,51.000000000000));
#88=CARTESIAN_POINT('NONE',(256.000000000000,-0.500000000000,51.000000000000));
#89=B_SPLINE_CURVE_WITH_KNOTS('NONE',1,
 (#87,#88),
 .UNSPECIFIED.,.F.,.F.,
 (2,2),
 (0.000000000000,1.000000000000),.UNSPECIFIED.);
#90=CARTESIAN_POINT('NONE',(256.000000000000,0.500000000000,51.000000000000));
#91=VERTEX_POINT('NONE',#90);
#92=CARTESIAN_POINT('NONE',(256.000000000000,-0.500000000000,51.000000000000));
#93=VERTEX_POINT('NONE',#92);
#94=EDGE_CURVE('Edge.Divider.Back',#91,#93,#89,.T.);
#95=ORIENTED_EDGE('NONE',*,*,#94,.F.);
#96=CARTESIAN_POINT('NONE',(256.000000000000,0.500000000000,51.000000000000));
#97=CARTESIAN_POINT('NONE',(256.000000000000,0.500000000000,199.000000000000));
#98=B_SPLINE_CURVE_WITH_KNOTS('NONE',1,
 (#96,#97),
 .UNSPECIFIED.,.F.,.F.,
 (2,2),
 (0.000000000000,1.000000000000),.UNSPECIFIED.);
#99=CARTESIAN_POINT('NONE',(256.000000000000,0.500000000000,199.000000000000));
#100=VERTEX_POINT('NONE',#99);
#101=EDGE_CURVE('Edge.Divider.SpanwiseC2 ',#91,#100,#98,.T.);
#102=ORIENTED_EDGE('NONE',*,*,#101,.T.);
#103=CARTESIAN_POINT('NONE',(256.000000000000,0.500000000000,199.000000000000));
#104=CARTESIAN_POINT('NONE',(256.000000000000,-0.500000000000,199.000000000000));
#105=B_SPLINE_CURVE_WITH_KNOTS('NONE',1,
 (#103,#104),
 .UNSPECIFIED.,.F.,.F.,
 (2,2),
 (0.000000000000,1.000000000000),.UNSPECIFIED.);
#106=CARTESIAN_POINT('NONE',(256.000000000000,-0.500000000000,199.000000000000));
#107=VERTEX_POINT('NONE',#106);
#108=EDGE_CURVE('Edge.Divider.BackTop ',#100,#107,#105,.T.);
#109=ORIENTED_EDGE('NONE',*,*,#108,.T.);
#110=CARTESIAN_POINT('NONE',(256.000000000000,-0.500000000000,51.000000000000));
#111=CARTESIAN_POINT('NONE',(256.000000000000,-0.500000000000,199.000000000000));
#112=B_SPLINE_CURVE_WITH_KNOTS('NONE',1,
 (#110,#111),
 .UNSPECIFIED.,.F.,.F.,
 (2,2),
 (0.000000000000,1.000000000000),.UNSPECIFIED.);
#113=EDGE_CURVE('Edge.Divider.SpanwiseC1 ',#93,#107,#112,.T.);
#114=ORIENTED_EDGE('NONE',*,*,#113,.F.);
#115=EDGE_LOOP('EdgeLoop.Divider.Back',(#95,#102,#109,#114));
#116=FACE_OUTER_BOUND('FaceBound.Divider.Back',#115,.T.);
#117=CARTESIAN_POINT('NONE',(256.000000000000,0.500000000000,51.000000000000));
#118=CARTESIAN_POINT('NONE',(256.000000000000,-0.500000000000,51.000000000000));
#119=CARTESIAN_POINT('NONE',(256.000000000000,0.500000000000,199.000000000000));
#120=CARTESIAN_POINT('NONE',(256.000000000000,-0.500000000000,199.000000000000));
#121=B_SPLINE_SURFACE_WITH_KNOTS('NONE',1,1,(
 (#117,#118),(#119,#120)),.UNSPECIFIED.,.F.,.F.,.F.,
 (2,2),
 (2,2),
 (0.000000000000,1.000000000000),
 (0.000000000000,1.000000000000),
 .UNSPECIFIED.);
#122=ADVANCED_FACE('FaceBound.Divider.Back__0_0_0',(#116),#121,.T.);
#123=CARTESIAN_POINT('NONE',(0.000000000000,0.500000000000,199.000000000000));
#124=CARTESIAN_POINT('NONE',(256.000000000000,0.500000000000,199.000000000000));
#125=B_SPLINE_CURVE_WITH_KNOTS('NONE',1,
 (#123,#124),
 .UNSPECIFIED.,.F.,.F.,
 (2,2),
 (0.000000000000,1.000000000000),.UNSPECIFIED.);
#126=EDGE_CURVE('Edge.Divider.LeftTop ',#71,#100,#125,.T.);
#127=ORIENTED_EDGE('NONE',*,*,#126,.T.);
#128=ORIENTED_EDGE('NONE',*,*,#101,.F.);
#129=CARTESIAN_POINT('NONE',(0.000000000000,0.500000000000,51.000000000000));
#130=CARTESIAN_POINT('NONE',(256.000000000000,0.500000000000,51.000000000000));
#131=B_SPLINE_CURVE_WITH_KNOTS('NONE',1,
 (#129,#130),
 .UNSPECIFIED.,.F.,.F.,
 (2,2),
 (0.000000000000,1.000000000000),.UNSPECIFIED.);
#132=EDGE_CURVE('Edge.Divider.Left',#57,#91,#131,.T.);
#133=ORIENTED_EDGE('NONE',*,*,#132,.F.);
#134=ORIENTED_EDGE('NONE',*,*,#77,.T.);
#135=EDGE_LOOP('EdgeLoop.Divider.Left',(#127,#128,#133,#134));
#136=FACE_OUTER_BOUND('FaceBound.Divider.Left',#135,.T.);
#137=CARTESIAN_POINT('NONE',(0.000000000000,0.500000000000,51.000000000000));
#138=CARTESIAN_POINT('NONE',(256.000000000000,0.500000000000,51.000000000000));
#139=CARTESIAN_POINT('NONE',(0.000000000000,0.500000000000,199.000000000000));
#140=CARTESIAN_POINT('NONE',(256.000000000000,0.500000000000,199.000000000000));
#141=B_SPLINE_SURFACE_WITH_KNOTS('NONE',1,1,(
 (#137,#138),(#139,#140)),.UNSPECIFIED.,.F.,.F.,.F.,
 (2,2),
 (2,2),
 (0.000000000000,1.000000000000),
 (0.000000000000,1.000000000000),
 .UNSPECIFIED.);
#142=ADVANCED_FACE('FaceBound.Divider.Left__0_0_0',(#136),#141,.T.);
#143=CARTESIAN_POINT('NONE',(0.000000000000,-0.500000000000,51.000000000000));
#144=CARTESIAN_POINT('NONE',(256.000000000000,-0.500000000000,51.000000000000));
#145=B_SPLINE_CURVE_WITH_KNOTS('NONE',1,
 (#143,#144),
 .UNSPECIFIED.,.F.,.F.,
 (2,2),
 (0.000000000000,1.000000000000),.UNSPECIFIED.);
#146=EDGE_CURVE('Edge.Divider.Right',#55,#93,#145,.T.);
#147=ORIENTED_EDGE('NONE',*,*,#146,.T.);
#148=ORIENTED_EDGE('NONE',*,*,#113,.T.);
#149=CARTESIAN_POINT('NONE',(0.000000000000,-0.500000000000,199.000000000000));
#150=CARTESIAN_POINT('NONE',(256.000000000000,-0.500000000000,199.000000000000));
#151=B_SPLINE_CURVE_WITH_KNOTS('NONE',1,
 (#149,#150),
 .UNSPECIFIED.,.F.,.F.,
 (2,2),
 (0.000000000000,1.000000000000),.UNSPECIFIED.);
#152=EDGE_CURVE('Edge.Divider.RightTop ',#64,#107,#151,.T.);
#153=ORIENTED_EDGE('NONE',*,*,#152,.F.);
#154=ORIENTED_EDGE('NONE',*,*,#65,.F.);
#155=EDGE_LOOP('EdgeLoop.Divider.Right',(#147,#148,#153,#154));
#156=FACE_OUTER_BOUND('FaceBound.Divider.Right',#155,.T.);
#157=CARTESIAN_POINT('NONE',(256.000000000000,-0.500000000000,51.000000000000));
#158=CARTESIAN_POINT('NONE',(0.000000000000,-0.500000000000,51.000000000000));
#159=CARTESIAN_POINT('NONE',(256.000000000000,-0.500000000000,199.000000000000));
#160=CARTESIAN_POINT('NONE',(0.000000000000,-0.500000000000,199.000000000000));
#161=B_SPLINE_SURFACE_WITH_KNOTS('NONE',1,1,(
 (#157,#158),(#159,#160)),.UNSPECIFIED.,.F.,.F.,.F.,
 (2,2),
 (2,2),
 (0.000000000000,1.000000000000),
 (0.000000000000,1.000000000000),
 .UNSPECIFIED.);
#162=ADVANCED_FACE('FaceBound.Divider.Right__0_0_0',(#156),#161,.T.);
#163=ORIENTED_EDGE('NONE',*,*,#152,.T.);
#164=ORIENTED_EDGE('NONE',*,*,#108,.F.);
#165=ORIENTED_EDGE('NONE',*,*,#126,.F.);
#166=ORIENTED_EDGE('NONE',*,*,#72,.F.);
#167=EDGE_LOOP('EdgeLoop.Divider.Top',(#163,#164,#165,#166));
#168=FACE_OUTER_BOUND('FaceBound.Divider.Top',#167,.T.);
#169=CARTESIAN_POINT('NONE',(0.000000000000,-0.500000000000,51.000000000000));
#170=CARTESIAN_POINT('NONE',(0.000000000000,0.500000000000,51.000000000000));
#171=CARTESIAN_POINT('NONE',(256.000000000000,-0.500000000000,51.000000000000));
#172=CARTESIAN_POINT('NONE',(256.000000000000,0.500000000000,51.000000000000));
#173=B_SPLINE_SURFACE_WITH_KNOTS('NONE',1,1,(
 (#169,#170),(#171,#172)),.UNSPECIFIED.,.F.,.F.,.F.,
 (2,2),
 (2,2),
 (0.000000000000,1.000000000000),
 (0.000000000000,1.000000000000),
 .UNSPECIFIED.);
#174=ADVANCED_FACE('FaceBound.Divider.Top__0_0_0',(#168),#173,.T.);
#175=ORIENTED_EDGE('NONE',*,*,#58,.F.);
#176=ORIENTED_EDGE('NONE',*,*,#146,.T.);
#177=ORIENTED_EDGE('NONE',*,*,#94,.F.);
#178=ORIENTED_EDGE('NONE',*,*,#132,.F.);
#179=EDGE_LOOP('EdgeLoop.Divider.Bottom',(#175,#176,#177,#178));
#180=FACE_OUTER_BOUND('FaceBound.Divider.Bottom',#179,.F.);
#181=CARTESIAN_POINT('NONE',(0.000000000000,-0.500000000000,199.000000000000));
#182=CARTESIAN_POINT('NONE',(0.000000000000,0.500000000000,199.000000000000));
#183=CARTESIAN_POINT('NONE',(256.000000000000,-0.500000000000,199.000000000000));
#184=CARTESIAN_POINT('NONE',(256.000000000000,0.500000000000,199.000000000000));
#185=B_SPLINE_SURFACE_WITH_KNOTS('NONE',1,1,(
 (#181,#182),(#183,#184)),.UNSPECIFIED.,.F.,.F.,.F.,
 (2,2),
 (2,2),
 (0.000000000000,1.000000000000),
 (0.000000000000,1.000000000000),
 .UNSPECIFIED.);
#186=ADVANCED_FACE('FaceBound.Divider.Bottom__0_0_0',(#180),#185,.F.);
#187=CLOSED_SHELL('RowShape_Unit__0__RowIndex__0___Divider__0',(#86,#122,#142,#162,#174,#186));
#188=MANIFOLD_SOLID_BREP('RowShape_Unit__0__RowIndex__0___Divider__0',#187);
#189=ADVANCED_BREP_SHAPE_REPRESENTATION('ABSR',(#188),#46);
#190=SHAPE_REPRESENTATION_RELATIONSHIP('SRR','',#49,#189);
ENDSEC;
END-ISO-10303-21;
